A-ha Tablatures - forever not yours

forever not yours

Found at www.aha-fr.com
the first French-speaking a-ha Website

Forever not yours (a-ha) by mute_z@zeos.net

chords used:
Gm: -355333-
Cm: -x35543-
Dm: -x57765-
Bb: -x13331- or: -688766-
Am: -577555- or: -x02210-

Intro:

Bb Gm Dm Cm
E|--6-5-6------3-1-3-----------------
B|------------------------3-1-3--1---
G|-----------------------------------
D|-----------------------------------
A|-----------------------------------
E|-----------------------------------

Bb Gm Dm Cm
E|--6-5-6------3-1-3-----------------
B|------------------------3-1-3--1---
G|-----------------------------------
D|-----------------------------------
A|-----------------------------------
E|-----------------------------------

Bb Gm Bb Am Gm
E|--6-5-6------3-1-3------6-5-6--5-3-5---3-1-3--3-3-1-3-1-3---3-3-1-3-1-3---3-3-1-3-1-3--
B|---------------------------------------------------------------------------------------
G|---------------------------------------------------------------------------------------
D|---------------------------------------------------------------------------------------
A|---------------------------------------------------------------------------------------
E|---------------------------------------------------------------------------------------

tab : Henrik Hertel (henland@nexgo.de)


*****************************************************
Seconde version :

Forever Not yours :
Solo
1|-656-313------|-656-313-656-535-313|
2|---------313-1|--------------------|
Cm
Hold me tight
Gm
This is a lonely night
D#
And Ive hurt you baby
A#
Because you are my light

Make me strong
Just like you make me weak
When your hands reach out for me
Even in your sleep

Refrain:
Gm D
Ill soon be gone now
D# A#
Forever not yours
Gm D
It wont be long now
D# A#
Forever not yours

Memories
they keep coming through
The good ones hurt more
Than the bad ones do
The days were high
And the nights were deep
And I miss you baby
I miss you baby

Refrain: (4 times)
Ill soon be gone now
Forever not yours
It wont be long now
Forever not yours

D D#
e|-2--3-
b|-3--4-
g|-2--3-
d|-4--5-
a|-5--6-
e|-2--3-